Tabs ...temas hardcore

weno esto es pa k dejen los tabs de temas (hardcore obviamente)

aki los mios

BLACK FLAG - RISE ABOVE

Rise Above Tab by Black Flag, ULTIMATE GUITAR TABS ARCHIVE | 250,000+ Guitar Tabs, Bass Tabs, Chords and Guitar Pro Tabs!

Intro
E|-----------------------------------------------------------------|
B|-----------------------------------------------------------------|
G|-----------------------------------------------------------------|
D|-----------------------------------------------------------------|
A|–777-666-555-44–777-666-555-44–777-666-555-44–777-666-555-44-|
E|-----------------------------------------------------------------|

E|-------------------------------------------------------------------------|
B|-------------------------------------------------------------------------|
G|------------------------------------------5------------------------------|
D|-55-777-55-777------------------55–77777-5-2-5555555555-777777777-------|
A|-55-777-55-777-777-666-555-444–55–77777-3-2-5555555555-777777777-/Slide|
E|-33-555-33-555------------------33–55555—0-3333333333-555555555-------|

Verse
E|--------------------------------------------|
B|--------------------------------------------|
G|--------------------------------------------|
D|-----44----44----44----44–55-777–55-777—|4X
A|–55----55----55----55-----55-777–55-777—|
E|---------------------------33-555–33-555—|

Chorus
E|-------------------------------------------------------------------|
B|-------------------------------------------------------------------|
G|–99999–55555-----------------99999–77777------------------------|
D|–99999–55555–55555–55-777–99999–77777–99999–55-777–55-777-|
A|–77777–33333–55555–55-777–77777–55555–99999–55-777–55-777-|
E|----------------33333–33-555----------------77777–33-555–33-555-|

Verse
E|--------------------------------------------|
B|--------------------------------------------|
G|--------------------------------------------|
D|-----44----44----44----44–55-777–55-777—|4X
A|–55----55----55----55-----55-777–55-777—|
E|---------------------------33-555–33-555—|

Chorus
E|-------------------------------------------------------------------|
B|-------------------------------------------------------------------|
G|–99999–55555-----------------99999–77777------------------------|
D|–99999–55555–55555–55-777–99999–77777–99999–55-777–55-777-|
A|–77777–33333–55555–55-777–77777–55555–99999–55-777–55-777-|
E|----------------33333–33-555----------------77777–33-555–33-555-|

Solo
E|—10–10–10–1010------------------15p13p12-15p13p12-17-14-17-15-17-16^-|
B|-10–10–10–10–10–33-5555-33-5555--------------------------------------|
G|--------------------------------------------------------------------------|
D|--------------------------------------------------------------------------|
A|--------------------------------------------------------------------------|
E|--------------------------------------------------------------------------|

|---------15-17^-|

–18-16---------
----------------
----------------
----------------

Chorus
E|-------------------------------------------------------------------|
B|-------------------------------------------------------------------|
G|–99999–55555-----------------99999–77777------------------------|
D|–99999–55555–55555–55-777–99999–77777–99999–55-777–55-777-|
A|–77777–33333–55555–55-777–77777–55555–99999–55-777–55-777-|
E|----------------33333–33-555----------------77777–33-555–33-555-|

Verse
E|--------------------------------------------|
B|--------------------------------------------|
G|--------------------------------------------|
D|-----44----44----44----44–55-777–55-777—|4X
A|–55----55----55----55-----55-777–55-777—|
E|---------------------------33-555–33-555—|

Chorus
E|-------------------------------------------------------------------|
B|-------------------------------------------------------------------|
G|–99999–55555-----------------99999–77777------------------------|
D|–99999–55555–55555–55-777–99999–77777–99999–55-777–55-777-|
A|–77777–33333–55555–55-777–77777–55555–99999–55-777–55-777-|
E|----------------33333–33-555----------------77777–33-555–33-555-|

End
E|-------------------------|
B|-------------------------|
G|-------------------------|
D|—55-777–55-777--------|3X
A|—55-777–55-777--------|
E|—33-555–33-555--------|

WARZONE - SOUND OF REVOLUTION

jajaja…esta la sake yo…hoy ase poko
asike no se si este 100% bien

INTRO

E-----------------------------------
B----------------------------------
G---------------------------------------
D—9-9-9-9-9-9-9-912-12-12-12-12-12 X NO SE …VEAN USTEDES
A—7-7-7-7-7-7-7-710-10-10-10-10-10
E-------------------------------------

E-----------------------------------
B------------------------------------
G--------------6-6-6-6-6-6-7-7-9-9-9
D-9-9-9-9-9-9-4-4-4-4-4-4-5-5-7-7-7 final de intro
A-7-7-7-7-7-7-----------------------
E--------------------------------------

despues

E-----------------------------------
B----------------------------------
G----------------------------------------
D-9-9-9-9------------12-12-12------------
A-7-7-7-7-9-9-9-9-9-10-10-10-12-12-12-12
E---------7-7-7-7-7----------10-10-10-10

LOS TIEMPOS ESTAN MAL …USTEDES VEAN CUANTAS VECES SON :wink:

ojala las canciones q hayan sakao ustedes las pongan…
:wink:

me se mas …si ustedes ponen …yo pongo (tabs)

En esos tiempos era tan facil hacer hardcore xD

El sound of revolution lo saqué a oido y una octava mas baja.

ooo fuck…

devera teni razon

como mierda se lee esa wea…jamás entendí, por eso toco bateria…xd

ajajajajaja
yo tampoco,
por eso ando el bicicleta…xd

no kaxo ni una wea :expressionless:
por eso prefiero kantar !lady!

nu caxio naa x eso pefiero andar en skate !!

pff… jarkor

Nooh kashiio naa asique prefieroo shuparlo

io no kaxo piko esa wea asi qe toko el bajo de la manera qe me salgaXD